Make your own free website on Tripod.com
---

Iron and Stone

(by The Obsessed)

---

Available on

  • Learn To Fly single


    Lyrics
    ?
    

    Tab
    
    Intro
     
    Drums, then...
    
    e|-------7--|-    -|
    B|-7h8p7----|- x4  |
    G|----------|-     |
                       |---- x2
    e|-------6--|-     |
    B|-5h7p5----|- x4  |
    G|----------|-    -|
    
    
    e|-7-7-7-7-7-7-7-7-7-7-7-6-6-6-6-6-6-6-6-6-6-6--|-
    B|-8-8-8-8-8-8-8-8-8-8-8-7-7-7-7-7-7-7-7-7-7-7--|-
    G|----------------------------------------------|-
    
    
    Verse
    
    e|-----------------------------|-
    B|-----------------------------|-
    G|-----------------------------|-
    D|-7/9-*-*-12-10---7/9-*-*-7-6-|-  x4
    A|-5/7-*-*-10-9----5/7-*-*-5-4-|-
    E|-----------------------------|-
    
    
    Chorus
    
    (played quite fast)
    
    e|-----------------------|-
    B|-----------------------|-
    G|-----------------------|-
    D|-7/9-*-*-------5-5-7-7-|-  x6
    A|-5/7-*-*-5-7-7-3-3-5-5-|-
    E|---------3-5-3---------|-
    
    Repeat Verse 
    
    Repeat Chorus
    
    Bridge
    
    e|--------------------------|-
    B|--------------------------|-
    G|--------------------------|-
    D|--------------------------|-  x4
    A|-2-2-5-7-7---5------------|-
    E|-0-0-3-5-5-7---7-6-5-3----|-
    
    Solo
    
    Play solo over verse
                                 /\  
    e|----------------7---7-6---6--6--/\----------6h7p6h7---------6h7p6h7--
    B|-(7)-8~-7h8p7h8----------------6--6-6h7p6h7---------6h7p6h7----------
    G|---------------------------------------------------------------------
    
    -------------|-
    -8-7-8-7-8-7-|-  Pick Scrape
    -------------|-
    
    Repeat Verse
    
    Repeat Chorus
    
    Repeat Bridge
    
    Click for a table of chords used in the song
    
    Tabbed by mtaylor@argonet.co.uk
    
    

    Click here to return to the home page . . .