Make your own free website on Tripod.com
---

Alone + Easy Target

on Foo Fighters

---
Available on
  • Foo Fighters
  • Big Me single


    Lyrics
    They knew all along
    They're not dumb, they were so wrong
    She's not always fun
    Hate it now, call when I'm done
    
    Pieces fell in place
    Puzzles suck, laugh in my face
    Turn and swing the pace
    I'll give this, keep the good waist
    
    Head is on
    I want out
    I'm alone and I'm an easy target
    Metronome
    I want out
    I'm alone and I'm an easy target
    
    Crazy TV dreams might be true
    Not what it seems.
    Food and cavities, chewing words
    Tear at the seams
    He don't feel so good, don't feel bad
    Not that he should
    I don't feel so good, don't feel bad
    Not that I should
    
    Did you ever listen? 
    Get out
    

    Tab
    Dropped D Tuning
    
    Intro/Verse
    Starts with a fade in, just strum 6,5 and 4 strings lightly.
    Then...
    
    ----8----8-----8---8-----8----8---0-----------------------------------
    ----8p7--8-----8p7-8-----8p7--8---0---------5----------------5--------
    ----7----7-----7---7-----7----7---0---------4--4-----------4-4-4------
    --0------0---------0----------0---0--4--4---4--4--4--0--2--2---2--2-0-
    --0------0---------0----------0------4--4---------4--0--2---------2-0-
    --0------0---------0----------0------4--4------------0--2---------2-0-
    x8
    
    Chorus...
    
    ------------------------------------------------------------
    ------------------------------------------------------------
    ------------------------------------------5-5-5-5-5-5-5-5---
    --0-0-3-5-5-5-3-0-0-3-7-7-7-0-3-0-3-0-3-0-5-5-5-5-5-5-5-5---
    --0-0-3-5-5-5-3-0-0-3-7-7-7-0-3-0-3-0-3-0-3-3-3-3-3-3-3-3---
    --0-0-3-5-5-5-3-0-0-3-7-7-7-0-3-0-3-0-3-0-------------------
    x2
    
    then Verse 2, then the chorus x4, then...
    
    ---------------------------------------
    ---------------------------------------
    ---------------------------------------
    -5-5-5-5-5-5-5-5-5-5-5-5---3--------0--
    -5-5-7-5-5-5-7-5-5-7-5-5---3--------0--
    -5-5-5-5-5-5-5-5-5-5-5-5---3--------0--
    x3
    
    -------------------------------------
    -------------------------------------
    -------------------------------------
    -9-9-9-9-9-9-9-9-9-9-9-9-9-12-----0--
    -9-9-9-9-9-9-9-9-9-9-9-9-9-12-----0--
    -9-9-9-9-9-9-9-9-9-9-9-9-9-12-----0--
    x4 and the last time play the 9's, stop and go back
    to the beginning.
    
    Tabbed by Airuk Noobie
    yrasr@hotmail.com
    

    Click here to return to the home page . . .