Make your own free website on Tripod.com
---

Good Grief

on Foo Fighters

---
Available on
  • Foo Fighters


    Lyrics
    Since I'm putting down all of the true things around, but I like it
    I handed down the crown, given the jewels and the answers of may
    The thought of being ousted comes and goes
    When I think about it the wind blows
    I hate it
    
    Run me out of town, somewhere a move might intended a gown at
    Pissed at all the bowels, always the blues and a delicate smile
    Missed all of the sideways, gull and noun
    Chills and petty band-aids, wrapped around
    I hate it
    
    Good grief
    

    Tab
    E:-------------------------|------------|
    B:-------------------------|------------|
    G:-6---9~~~--6---9---6-----|------9~~~--|
    D:-------------------------|-9----------|
    A:-------------------------|------------|
    E:-------------------------|------------|
    
    Verse:
    
    e:------------------------------------|------------------------------------|
    B:------------------------------------|------------------------------------|
    G:-4-4-4-4--4-4-4-4--4-4-4-4--4-4-4-4-|-7-7-7-7--7-7-7-7--7-7-7-7--7-7-7-7-|
    D:-4-4-4-4--4-4-4-4--4-4-4-4--4-4-4-4-|-7-7-7-7--7-7-7-7--7-7-7-7--7-7-7-7-|
    A:-2-2-2-2--2-2-2-2--2-2-2-2--2-2-2-2-|-5-5-5-5--5-5-5-5--5-5-5-5--5-5-5-5-|
    E:------------------------------------|------------------------------------|
                 Since  I'm   good   and   down                       All the
    
    e:------------------------------------|------------------------------------|
    B:------------------------------------|------------------------------------|
    G:------------------------------------|------------------------------------|
    D:-4-4-4-4--4-4-4-4--4-4-4-4--4-4-4-4-|-7-7-7-7--7-7-7-7--7-7-7-7--7-7-7-7-|
    A:-4-4-4-4--4-4-4-4--4-4-4-4--4-4-4-4-|-7-7-7-7--7-7-7-7--7-7-7-7--7-7-7-7-|
    E:-2-2-2-2--2-2-2-2--2-2-2-2--2-2-2-2-|-5-5-5-5--5-5-5-5--5-5-5-5--5-5-5-5-|
       truth     is    around     but  I    like   it...
    
    Chorus:
    
    e:------------------------------------|-----------------------------------|
    B:------------------------------------|-----------------------------------|
    G:-2-2-2-2--2-2-2-2-------------------|-------------------2-2-2-2--2-2-2-2|
    D:-2-2-2-2--2-2-2-2--2-2-2-2--2-2-2-2-|-4-4-4-4--4-4-4-4--2-2-2-2--2-2-2-2|
    A:-0-0-0-0--0-0-0-0--2-2-2-2--2-2-2-2-|-4-4-4-4--4-4-4-4--0-0-0-0--0-0-0-0|
    E:-------------------0-0-0-0--0-0-0-0-|-2-2-2-2--2-2-2-2------------------|
           Hate it!          Hate it!           Hate it!          Hate it!
    
    
    e:------------------------------------|------------------------------------|
    B:------------------------------------|------------------------------------|
    G:------------------------------------|-2-2-2-2--2-2-2-2-------------------|
    D:-2-2-2-2--2-2-2-2--4-4-4-4--4-4-4-4-|-2-2-2-2--2-2-2-2--2-2-2-2--2-2-2-2-|
    A:-2-2-2-2--2-2-2-2--4-4-4-4--4-4-4-4-|-0-0-0-0--0-0-0-0--2-2-2-2--2-2-2-2-|
    E:-0-0-0-0--0-0-0-0--2-2-2-2--2-2-2-2-|-------------------0-0-0-0--0-0-0-0-|
           Hate it!          Hate it!           Hate it!
    
    Bridge:
    
    e:---------------------------|------------------------------|
    B:---------------------------|------------------------------|
    G:---------2---2---2---2---2-|---------2---2---2---2---2---4|
    D:---------2---2---2---2---2-|---------2---2---2---2---2---4|
    A:-2---2---------------------|-2---2------------------------|
    E:---------------------------|------------------------------|
    
    e:------------------------------------|------------------|
    B:------------------------------------|------------------|
    G:-------------------2-2-2-2--2-2-2-2-|------------------|
    D:-4-4-4-4--4-4-4-4--2-2-2-2--2-2-2-2-|-2-2-2-2--2-2-2-2-|
    A:-4-4-4-4--4-4-4-4--0-0-0-0--0-0-0-0-|-2-2-2-2--2-2-2-2-|
    E:-2-2-2-2--2-2-2-2-------------------|-0-0-0-0--0-0-0-0-|
    
    Tabbed by Jeff Aldrich
    ArglBargle@aol.com
    

    Click here to return to the home page . . .