Make your own free website on Tripod.com
---

Ain't It The Life

There Is Nothing Left To Lose

---
Available on
  • There Is Nothing Left To Lose
  • Stacked Actors (Australian single)


    Lyrics
    
    Verse 1
    Dear Haley
    Can you save me from
    The borrowed cloud I'm on
    All you've gotta do is try
    Pray you're just getting by
    
    Hey wait I thought you made it
    How'd your bottled crown fall off
    Tell me how'd you get so tired
    Fade it down to the wire
    
    Pre-chorus
    Try living a lie and kicking out
    The same old guise
    Wasting time
    
    Verse 2
    So very ordinary
    Wait until my bomb goes off
    See the actors run and hide
    Fake it all in stride
    
    One day we all can say where we're gone
    And haunt the ground we're from
    Everything's so open wide
    Hear within the divide
    
    Prechorus
    
    Chorus
    Ain't it the life
    Ain't it the life
    Ain't it the life
    Got no crime
    Just sail on by
    Sail on by
    Ain't it the life
    
    Solo
    
    Prechorus
    
    

    Tab
    
    Intro
    
    e-|-0-0-----------0------0--|-----------------|
    B-|-1---1---------8------8--|-10-10-10-10-8---|
    G-|-0-----0-------0------0--|---------------9-|
    D-|-2-------2-----9------9--|-----------------|
    A-|-3---------3/7/10-7/5/10-|-----------------|
    E-|-------------------------|-----------------|
        C
    
    Verse
    C  Am
    
    G#               Bb C
    All you've gotta do is try
    
    C E(hi) D C
    
    (Riff behind verse 2)
    e-|-8---7---
    B-|---8---8-
    
    Pre-chorus
    G
    Try living..
        C    B   Am
    The same old guise
    
            Fm
    Wasting time
    
    Solo
    
                       
    e-|-------12----------|-------12----------|
    B-|-12h13----13-12-13-|-12h13----13-12-13-|
    G-|-------------------|-------------------|
    
    e-|----------------|-------------------|
    B-|-8/10/8---------|-8/10/8------------|
    G-|--------7-7/9-9-|--------7-7/9-9/7/5|
    
    G# Bb Before...
    
        C
    e-|-------8---8-|-8-7-7-7-5-3--5b----|
    B-|-----8---8---|-----------------5b-|
    G-|-5/9---------|--------------------|
    
    Ending
    
    e-|-------------|-------------|
    B-|-8-8-8-8-6-5-|-5-3-3-3-3-1-|
    G-|-9-9-9-9-7-5-|-5-4-4-4-4-2-|
    
    
    Tabbed by
    gtaylor@cs.ucl.ac.uk

    Click for a table of chords used in the song . . .


    Click here to return to the home page . . .