Make your own free website on Tripod.com
---

Fraternity

There Is Nothing Left To Lose

(Australian Bonus Track)

---
Available on
  • There Is Nothing Left To Lose (Australia only)


    Lyrics
    
    Verse
    I'll never be fraternity...
    
    

    Tab
    
    Intro
    
    A#/D#5  G/C5  G5
    A#/D#5  G/C5  G#5
    A#/D#5  G/C5  G5  G#5  F5
    
    Verse
    A#/D#5  G/C5  D#5  
    
    G#5  F
    
    Verse 2
    Repeat muted intro
    
    Pre-chorus
    D#5  F5(high)  C5  C#5
    D#5  F5(high)  C5
    
    Bridge
    
    e-|----------
    B-|-6-7-9-7--
    G-|----------
    Play verse chords beneath this
    
    Solo
    
    e-|----------------------------|
    B-|-------------------------11-|
    G-|-10-10-12-10-12-13-12-10----|
    
    e-|----------------------------|
    B-|-11-11-13-11----------11----|
    G-|-------------13-12-13----13-|
    
    e-|-13-13-13-15-13----------13-|
    B-|----------------16-15-16----|
    G-|----------------------------|
    
    e-|----------------13------|
    B-|----13-16-15-16----16~~-|
    G-|-15---------------------|
    
    
    Tabbed by
    gtaylor@cs.ucl.ac.uk

    Click for a table of chords used in the song . . .


    Click here to return to the home page . . .