Make your own free website on Tripod.com
---

Live-In Skin

There Is Nothing Left To Lose

---
Available on
  • There Is Nothing Left To Lose


    Lyrics
    
    Verse 1
    Take your payroll
    And your lottery
    There's a place I know
    There's a robbery
    
    And I swear I'll never tell
    If you swear you'll never tell
    And we'll all make out so well
    We will all make out so well
    
    Chorus
    Head on with my hate
    Into the lights ahead
    I'm amazed that I'm still standing
    And I demand that we all blend in
    I'm amounted
    
    Verse 2
    Just the same old
    Glitter story
    From the sea floor
    Metamorphosis
    And I can't change back for you
    I will not change back for you
    I must live in skin that's new
    I'm a livid skin that's new
    
    Chorus
    
    Bridge
    Turn your insides out to the outside
    Turn the outside in to the inside
    Trade your outside in for the inside
    Turn it around again
    Repeat
    
    I'm amounted
    
    And I can't change back for you
    No I can't change back for you
    
    

    Tab
    Dropped D tuning
    
    Main Riff
    
    D-|---------------------------------
    A-|-----5-----5-----------------4-5-
    D-|-0-5---0-4---0-2-2-0-0-2-0-0-----
    
    D-|---------------------------------
    A-|-----5-----5--5-5-7-5-4-7-5--4-5-
    D-|-0-5---0-4-----------------------
    
    Chorus
    
    D-|---------|---------|
    A-|---3-5-2-|---1-3---|
    D-|-0-------|-0-----5-|
    
    Bridge
    D5 Bb5   x3
    
    C5 G (5th fret, 6th string)
    
    Ending
    
    D-|---------|---------------------------------
    A-|-4h5p4p0-|-----5-----5-----------------4-5-
    D-|---------|-0-5---0-4---0-2-2-0-0-2-0-0-----
    
    
    Tabbed by
    gtaylor@cs.ucl.ac.uk

    Click for a table of chords used in the song . . .


    Click here to return to the home page . . .