Make your own free website on Tripod.com
---

All My Life

One By One

---
Available on
  • One By One
  • All My Life single (2CDs) (view front cover)


    Lyrics
    
    Verse
    All my life I've been searching for something
    Something never comes, never leads to nothing
    Nothing satisfies but I'm getting close
    Closer to the prize at the end of the rope.
    
    All night long I dream of the day
    When it comes around and its taken away
    Leaves me with the feeling that I fear the most
    Feeling comes alive when I see your ghost.
    
    Chorus
    
    
    Done, done, on to the next one.
    
    

    Tab
    
    Verse
     with heavy palm muting.
    D-|-5--5--5--
    A-|-5--5--5--
    E-|-3--3--3--
    
     with distortion
    e-|-------------------------------
    B-|-------------------------------
    G-|-3-3---3-3-3---3-3-3---3---5-5-
    D-|-5-5---5-5-5---5-5-5---5---7-7-
    A-|-------------------------------
    E-|-------------------------------
    
    e-|-------------------------------
    B-|-------------------------------
    G-|-3-3---3-3-3---3-3-3---3---6-6-
    D-|-5-5---5-5-5---5-5-5---5---7-7-
    A-|-------------------------------
    E-|-------------------------------
    
    Chorus
    
    e-|-----|-----|-------------
    B-|-----|-----|-------------
    G-|--8--|-----|-------3-----
    D-|--8--|--5--|-2--3--3-----
    A-|--6--|--5--|-2--3--1-----
    E-|-----|--3--|-0--1--------
    
    
    

    Click here to return to the home page . . .