AnAl CrUsT LuBrIcAtOr

Home

About Us
Funny ish
Download Our Songs
Photos Of Us
Lyrics
Contact Us
Guitar Tabs
Guitar Tabs

Gutiar tabs for our songs...

Ghonnorhea

Standard Tuning: E A D G B E

Verses
----------------------------------------------------------
------1----1----------1-----------------------------------
----2----2------1-----------------------------------------
--2----3------2-------------------------------------------
------------3------2--------------------------------------
-----------------3----------------------------------------


G D Am Em
---3-3-----2-2-2-2----------------------------------------
-----------3-3-3-3-----1-1--------------------------------
-----------2-2-2-2-----2-2--------------------------------
-----------------------2-2----2-2-2-----------------------
---2-2------------------------2-2-2-----------------------
---3-3----------------------------------------------------
Download song to listen to rythem