Girls and Boys  

^ = Hammer on/pull off / = Slide up \ = Slide down
Keyboard: (arranged for guitar)

G C
e-|---------------------------------|---------------------------------|
B-|---------------------------------|---------------------------------|
G-|---------------------------------|---5---5---5---5---5---5---5---5-|
D-|---5---5---5---5---5---5---5---5-|---------------------------------|
A-|---------------------------------|-3---3---3---3---3---3---3---3---|
E-|-3---3---3---3---3---3---3---3---|---------------------------------| 

F D# F# F
e-|---------------------------------|----------------------------------|
B-|---------------------------------|----------------------------------|
G-|---------------------------------|---8---8---8---8---8---8---11--10-|
D-|---3---3---3---3---3---3---3---3-|----------------------------------|
A-|---------------------------------|-6---6---6---6---6---6---9---8----|
E-|-1---1---1---1---1---1---1---1---|----------------------------------|

Bass line:

G C
G-|----------------------------------|-------5-------5-------5-5-3^4^5\-|
D-|-------5-------5-------5-5-3^4^5\-|----------------------------------|
A-|----------------------------------|-0^2/3---0^2/3---0^2/3------------|
E-|-0^2/3---0^2/3---0^2/3------------|----------------------------------|

F D#
G-|----------------------------------|-----8\------8\------8\--8-7-8----|
D-|----------------------------------|----------------------------------|
A-|-----3-------3-------3------------|-6-------6-------6----------------|
E-|-0^1-----0^1-----0^1------3-4-5---|----------------------------------|

Guitar: Same chords as keyboard, but I think there might be a sus...
These are all barre chords, possibly fifth chords too.
GG GG GG GG CC CC CC CC FF FF FF FF D#D# D#D# D#D# F# F
Could be something like Gsus G Gsus G, etc.