Make your own free website on Tripod.com
---

For All The Cows

on Foo Fighters

---
Available on
  • Foo Fighters
  • For All The Cows single (view front cover)
  • Big Me single (US)


    Lyrics
    I'm called a cow
    I'm not about
    To blow it now
    For all the cows
    
    It's funny how money allows all to browse
    And be endowed
    This wish is true it falls into pieces new
    The cow is you
    
    My kind has all run out, as if kinds could blend
    Some time if time allows, everthing worn in
    Like it's a friend
    
    I said you're all a painted doll and it caused
    The walls to fall
    How far is he? 
    Impatiently
    That's as far as far can be
    

    Tab
    
    Intro/Verse
    
       C7sus2    B7           E
    e|------------------------------------------------------------------
    B|-----3----------0-------------------------------------------------
    G|-----3----2--2--2-------1--1---1----------------------------------
    D|-----2----3--3--3-------2--2---2----------------------------------
    A|--3-------2--2--2-------2--2---2----------------------------------
    E|-------------------------------0----------------------------------
          i'm   called a    cow...
    
    Chorus
    e|------------------------------------------------------------------
    B|------------------------------------------------------------------
    G|------------------------------------------------------------------
    D|--5-5-5-5-5-5---9--9-9-9-9-9-9-9-9-9-9-9-9------------------------
    A|--5-5-5-5-5-5---9--9-9-9-9-9-9-9-9-9-9-9-9------------------------
    E|--3-3-3-3-3-3---7--7-7-7-7-7-7-7-7-7-7-7-7------------------------
        my kind has   all run out...
    
    e|------------------------------------------------------------------
    B|------------------------------------------------------------------
    G|----------5-5-5-5-----------5-5-5-5-----------5-5-5-5--9-9-9-9-9\-
    D|-7-7-7-7--5-5-5-5--7-7-7-7--5-5-5-5--7-7-7-7--5-5-5-5--9-9-9-9-9\-
    A|-7-7-7-7--3-3-3-3--7-7-7-7--3-3-3-3--7-7-7-7--3-3-3-3--7-7-7-7-7\-
    E|-5-5-5-5-----------5-5-5-5-----------5-5-5-5----------------------
         everything worn in everything worn in          like its a friend
    
    Chords
    C7sus 2 = x3233x
    B7      = x2320x
    E       = 0221xx
    
    Tabbed by Ian V
    ianv@vianet.on.ca
    

    Click here to return to the home page . . .