CIFRAS

"A VIDA, A OBRA E O LEGADO DE UM REI"

Algumas Músicas Cifradas

A B C D E F G H I J K L M N O P Q R S T U V W X Y Z


T-R-O-U-B-L-E

Standard tuning.

Intro: D C G
C G
I play an old piano from nine till a half past one.
D C G
Tryin' to make a livin' watchin' everybody else havin' fun.
C G
Well, I don't miss much if it happens on a dance hall floor.
D C G
Mercy - look what just walked through that door.

C G
Well, hello T-R-O-U-B-L-E.
D C G
What in the world are you doin' A-L-O-N-E?
C G D C D C G
Say, hey good L-Double-O-K-I-N-G, I smell T-R-O-U-B-L-E.

G*
I was a little bitty baby when my papa hit the skids.
Mama had a time tryin' to raise nine kids.
Told me not to stare'cause it was impolite.
And did the best she could to try to raise me right.

C G
Hey! But mama never told me 'bout nothin' like-a Y-O-U.
D C G
Say, your mama must have been another somethin'-or another too.
C G D C D C G
Say, hello good L-Double-O-K-I-N-G, I smell T-R-O-U-B-L-E.

G*
Well, you talk about a woman: I've seen a lotta others.
With too much somethin' and not enough of another.
You've got it all together like a lovin' machine.
You're lookin' like glory and walkin' like a dream.

C G
Mother Nature's sure been good to Y-O-U.
D C G
Well your mother must have been another good-lookin' mother too.
C G D C D C G
Say, hey, good L-Double-O-K-I-N-G, I smell T-R-O-U-B-L-E.

 

G*
Well, you talk about a trouble-makin' hunka' pokey bait.
That men are gonna love and all the women gonna hate.
Remindin' them of everything they're never gonna be.
Maybe the beginning of a World War Three.

C G
Cause the world ain't ready for nothin' like a Y-O-U.
D C G
Well I bet your mother musta been a good-lookin' mother too. Hey, say hey!

C G D C D C G
Say, hey, good L-Double-O-K-I-N-G, I smell T-R-O-U-B-L-E.

Hey, hey etc.

* Keep the G chord alive trough the whole verse.


Teddy Bear

Standard tuning.

C
Baby let me be,
F C
your lovin' Teddy Bear
F
Put a chain around my neck,
F C
and lead me anywhere
G7
Oh let me be
[NC] C
Your teddy bear.

F G7
I don't wanna be a tiger
F G7
Cause tigers play too rough
F G7
I don't wanna be a lion
F G7
'Cause lions ain't the kind
C
you love enough.
[NC] C
Just wanna be, your Teddy Bear
F
Put a chain around my neck
F C
and lead me anywhere
G7
Oh let me be
C
Your teddy bear.

Baby let me be, around you every night
Run your fingers through my hair,
And cuddle me real tight.


Thanks To The Rolling Sea

G F G F
Thanks to the rolling rolling rolling
G F G
Thanks to the rolling sea
G F G F
Thanks to the rolling rolling rolling
G F G
Thanks to the rolling sea

D F D G
Fish on the table and fish on the fire
D F D
Fried fish hanging on the tree
D F D G
Everything here that your heart desires
D F G
Thanks to the rolling sea
D F G
Thanks to the rolling sea

D F D G
Livin' is good and livin is fine
D F D
We're happy as we can be
D F D G
We owe all this to the salty brine
D F G
Thanks to the rolling sea
D F G
Thanks to the rolling sea

C G
We work all day but our hearts are gay
C G
And while we work we sing
C G
The mighty sea is good to us
A D
We've got everything

D F D G
Abalone steaks and tuna fish cakes
D F D
Taste so heavenly
D F D G
We know who we owe it to
D F G
Thanks to the rolling sea

Thanks to the rolling, rolling, rolling
Thanks to the rolling sea
Thanks to the rolling, rolling, rolling
Thanks to the rolling sea
Thanks to the rolling, rolling, rolling
Thanks to the rolling sea
Thanks to the rolling, rolling, rolling, thanks to the rolling sea.


That's All Right, Mama

Standard tuning.

Intro: A

(Fast country shuffle)
E||-------5------5-------|--9--------12----9-------|-------5------5-------|
B||-------5---------5----|--10---------------------|-------5---------5----|
G||----------------------|--------9-----------9----|----------------------|
D||----------------------|-------------------------|----------------------|
A||----------------------|-------------------------|----------------------|
E||--5-------------------|-------------------------|--5-------------------|

E||--9--------12----9-------|-------5------5-------|--9--------12----9-------|
B||--10---------------------|-------5---------5----|--10---------------------|
G||--------9-----------9----|----------------------|--------9-----------9----|
D||-------------------------|----------------------|-------------------------|
A||-------------------------|----------------------|-------------------------|
E||-------------------------|--5-------------------|-------------------------|

E||--9---9---9---9---9---9-----9---|--9---9---9---9---9---9---------|
B||--10--10--10--10--10--10----10--|--10--10--10--10--10--10--10\---|
G||--------------------------------|--------------------------------|
D||--------------------------------|--------------------------------|
A||--------------------------------|--------------------------------|
E||--------------------------------|--------------------------------|

E||----------------------|--5-------------------|----------------------|
B||-------7--------------|--7-------7------5----|-------7--------------|
G||-------5------5-------|-------5--------------|-------5------5-------|
D||-----------------7----|----------------------|-----------------7----|
A||--5-------------------|--5-------------------|--5-------------------|
E||----------------------|----------------------|----------------------|

E||--5-------------------|------7--7--7--7--7----|--7-------7----7--7----|
B||--7-------7------5----|------7--7--7--7--7----|--7-------7----7--7----|
G||-------5--------------|------7--7--7--7--7----|--7----7--7----7--7----|
D||----------------------|-----------------------|-------6---------------|
A||--5-------------------|-----------------------|-----------------------|
E||----------------------|-----------------------|-----------------------|

E||------7--7--7--7--7----|--7--7--7--9----7--7----|
B||------7--7--7--7--7----|--7--7--7--9----7--7----|
G||------7--7--7--7--7----|--7--7--7--7----7--7----|
D||-----------------------|------------------------|
A||-----------------------|------------------------|
E||-----------------------|------------------------|

+----------------------- +------
| 1, 3 | 2 = Solo

E||-------5--------------|--5------------5-------||
B||--------------7p-5----|----------7------------||
G||----------------------|-------6----------7----||
D||-------7--------------|-----------------------||
A||----------------------|-----------------------||
E||--5-------------------|--5--------------------||

A
Well, that's all right, mama
A
That's all right for you
A
That's all right mama, just anyway you do
D
Well, that's all right, that's all right.
E7 A
That's all right now mama, anyway you do

Mama she done told me,
Papa done told me too
'Son, that gal your foolin' with,
She ain't no good for you'
But, that's all right, that's all right.
That's all right now mama, anyway you do

Solo:
E||---------------------|----------------------|-----------------------|
B||---------------------|-------5----3----2----|--3/-5-----------------|
G||---------------------|-------6----4----2----|--4/-6-----------------|
D||---------------------|----------------------|-----------------------|
A||---------------------|----------------------|-----------------------|
E||------0----2----4----|--5-------------------|--------0----2----4----|

E||----------------------|-----------------------|----------------------|
B||-------5----3----2----|--3/-5-----------------|-------5----3----2----|
G||-------6----4----2----|--4/-6-----------------|-------6----4----2----|
D||----------------------|-----------------------|----------------------|
A||----------------------|-----------------------|----------------------|
E||--5-------------------|--------0----2----4----|--5-------------------|

E||----------------------|----------------------|----------------------|
B||--3/-5----7----5------|--7r-------5----------|----------------------|
G||--4/-6----------------|----------------7--6--|----4-----------------|
D||----------------------|----------------------|-----------7--6--5----|
A||----------------------|----------------------|----------------------|
E||----------------------|----------------------|----------------------|

E||-------5--------------|--5------5------------|-------5--------------|
B||--------------5-------|--------------5-------|--------------5-------|
G||-----------------5----|-----------------5----|-----------------5----|
D||--4-------------------|----------------------|--4-------------------|
A||----------------------|----------------------|----------------------|
E||----------------------|----------------------|----------------------|

E||--5------5------------|-------0--------------|--3----3------0-------|
B||--------------5-------|--------------0-------|-----------------0----|
G||-----------------5----|-----------------1----|----------------------|
D||----------------------|----------------------|----------------------|
A||----------------------|----------------------|----------------------|
E||----------------------|--0-------------------|----------------------|

E||-------0--------------|--3----3------0-------|-------5------5-------|
B||--------------0-------|-----------------0----|-------5---------5----|
G||-----------------1----|----------------------|----------------------|
D||----------------------|----------------------|----------------------|
A||----------------------|----------------------|----------------------|
E||--0-------------------|----------------------|--5-------------------|

E||--9--------12----9-------|-------5------5-------|--9--------12----9-------||
B||--10---------------------|-------5---------5----|--10---------------------||
G||--------9-----------9----|----------------------|--------9-----------9----||
D||-------------------------|----------------------|-------------------------||
A||-------------------------|----------------------|-------------------------||
E||-------------------------|--5-------------------|-------------------------||

I'm leaving town, baby
I'm leaving town for sure
Well, then you won't be bothered with
Me hanging 'round your door
Well, that's all right, that's all right.
That's all right now mama, anyway you do


That's Someone You Never Forget

Standard tuning.

Intro: F#m D F#m D

F#m D
The way she held your hand,
F#m D
The little things you planned
Em D
Her memory is with you yet
G A D
That's someone you never forget

F#m D
When she is far away
F#m D
You'll think of her each day
Em D
And you know she'll wait for you
G A D
That's someone you never forget

Em A7 D
Others may pass your way
Em A7 D
And let you think their love is true
Bm E7 A
But you know that they'll never replace
Bm E7 A
The one that waits for you

F#m D
The way she held your hand,
F#m D
The little things you planned
Em D
Her memory is with you yet
G A D
That's someone you never forget
G A D
That's someone you never forget


That's When Your Heartaches Begin

Riff 1:
e||------------0--||
B||------------0--||
G||------------1--||
D||------------2--||
A||------------2--||
E||---3--2--1--0--||

Intro: C

C E
If you find your sweetheart
F
in the arms of a friend
C G7 C G7
That's when your heartaches begin
C E
When dreams of a lifetime
F
must come to an end
C G7 C F C
That's when your heartaches begin

 

E
Well you see, love is a thing
A
you never can share
D
When you bring a friend
G G7
into your love affair
C E
That's the end of your sweetheart,
F
that's the end of your friend
C G7 C F C G7
That's when your heartaches begin

 

(Spoken)
C E
If you find your sweetheart
A
in the arms of a your best friend, brother
D G7 C
He says, that's, yeah that's when your heartaches begin
G7
He says, and let me tell you something else
C E
When all your dreams of a lifetime
A
must all come to an end
D G7 C Riff 1
Well that's, that's when your heartaches begin

 

E
'Cause you see, love is a thing
A
that you never can share
D
And when you bring a friend
G G7
into your love affair

 

C E
That's the end of your sweetheart,
F
that's the end of your friend
C G7 F C
That's when your heartaches be------gin


The Fool

c am dm g7
Gather round me buddy, raise your glasses high
em a
And drink to a fool, a crazy fool
f g7 c
Who told his baby goodbye

Too late he found he loved her so much he wants to die
So drink to a fool, a crazy fool
Who told his baby goodbye

g7 c
He needs her, he needs her so
g7 em a
He wonders why he let her go

She's found, she's found, she's found
A new love buddy, he's a lucky guy
So drink to a fool, a crazy fool
Who told his baby goodbye


The Girl Of My Best Friend

Standard tuning.

Intro: |: E | C#m :|

E C#m
The way she walks,
E C#m
The way she talks
E C#m B
How long can I pretend
A B E C#m
Oh, I can't help it I'm in love
A B E C#m
With the girl of my best friend

E C#m
Her lovely hair,
E C#m
Her skin so fair
E C#m B
I could go on and never end
A B E C#m
Oh, I can't help it I'm in love
A B E C#m
With the girl of my best friend

A B
I want to tell her
E C#m
How I love her so
B E
And hold her in my arms, but then
A B E C#m
What if she got real mad and told him so
F# B
I could never face either one again

E C#m
The way they kiss
E C#m
Their happiness
E C#m B
Will my ache-in' ever end
A B E C#m
Or will I always be in love
A B E C#m
With the girl of my best friend?

E C#m
Never end,
E C#m
Will it ever end?
E C#m
Please let it end


The Impossible Dream

To (Cmaj7) dream (C) the impossible (Cmaj7) dream,
(C)To (Fsus2) fight (F) the unbeatable (Fsus2) foe. (F)
To (Em) bear with unbearable (F) sorrow,
To (Dm) run where the brave dare not (G7) go.

To (Cmaj7) right (C) the unrightable (Cmaj7) wrong,
(C)To (Fsus2) love (F) pure and chaste from (Fsus2) afar,
(F)To (Em) try when you arms are too (F) weary,
To (Dm) reach the unreachable (Gsus4) star.

(G7)This is my (C) quest, to follow that (Am) star,
No matter how (Em) hopeless no matter how (F) far.
To fight for the (Am) right without question or (A6) pause.
To be willing to (C) march into hell for a (Am) heavenly (Bb) cause.
And I (Dm) know if I'll only be (Bb) true to this glorious (E) quest,
That my (F) heart will be peaceful and calm (Dm6) when I'm laid to my (Em) rest.

And the (Cmaj7) world (C) will be better for (Cmaj7) this, (
C)That one (Fsus2) man (F) scorned and covered with (Fsus2) scars,
(F)Still (Em) strove with his last ounce of (F) courage,
To (C) reach (Dm) the unreachable (C) star.


The Lord's Prayer

G/F C/E G/F C/E
Our Father, in heaven, holy is Your name.
G/F C/E G/F CF
orgive us our sins, Lord, as we forgive.
Bb2 F CY
our Kingdom come. Your will be done.
Bb2 F C C2
Your Kingdom come. Your will be done.
G/F C/E G/F C/E
Our Father, in heaven, give us our bread.
G/F C/E G/F C
Lead us not into temptation, but deliver us from the evil one.
Bb2 F C
Your Kingdom come. Your will be done.
Bb2 F C G
Your Kingdom come. Your will be done on the earth.
Bb2 F C G
As it is in heaven, let it be done on the earth.
Bb2 F C Bb2 F C
Amen. Amen.


The Next Step is Love

Intro: Eb Gm Bb Eb

Ab Bb
Yesterday, I slipped away
Gm
The sun is welcoming the evening shadows
Cm Eb Fm Bb
On a perfect day and the next step is love
Eb5 Db5 C5 Bb5
The next step is love

Eb5 Db5
We walked barefoot through the misty meadows
C5 Bb5 Eb5 Db5 C5 Bb5
Laughing at each other in the rain
Eb5 Db5 C5
Made some faces at some people in the park
Bb5 Eb5 Db5 C5 Bb5
Didn't bother to explain
Eb5 Db5
Fun, fun, look at us run
C5 Bb5 Eb5 Db5 C5 Bb5
Going nowhere special really fast
Eb5 Db5 C5
But we've yet to taste the icing on the cake
Bb5 Eb5 Ab Eb
That we've been baking with the past

Fm
And the next step is love
So what are we waiting for?
The next step is love
Girl, it's for sure
Ab Bb
Yesterday, I slipped away
Gm
The sun is welcoming the evening shadows
Cm Eb Fm Bb
On a perfect day and the next step is love
F5 Eb5 D5 C5
The next step is love

F5 Eb5
Love will be a place to run to
D5 C5 F5 Eb5 D5 C5
From the world they've built to you and me
F5 Eb5
We'll be closer than we've ever been
D5 C5 F5 Eb5 D5 C5
Though looking back it's so hard to believe
F5 Eb5
Hang it all out or bring it all in
D5 C5 F5 Eb5 D5 C5
The best we've picked upon the way tonight
F5 Eb5 D5
Changes are coming but together
C5 F5 Bb F
We can make it through somehow

Gm
Cause the next step is love
So what are we waiting for?
The next step is love
Girl, it's for sure
Bb C
Yesterday, I slipped away
Am
The sun is welcoming the evening shadows
Dm F Gm C
On a perfect day and the next step is love
F5 Eb5 D5 C5
The next step is love
F5 Eb5 D5 C5
Yes it's love
F5 Eb5 D5 C5
The next step is love
F5 Eb5 D5 C5
Yes it's love
F5 Eb5 D5 C5
The next step is love

Chrods:
Eb5 Db5 C5 Bb5 F5 D5
e ----- ----- ----- ----- ----- -----
B ----- ----- ----- ----- ----- -----
G --8-- --6-- --5-- --3-- --10- --7--
D --8-- --6-- --5-- --3-- --10- --7--
A --6-- --4-- --3-- --1-- --8-- --5--
E ----- ----- ----- ----- ----- -----


The Wonder of You

Standard tuning.

F Dm
When no-one else can understand me
Gm7 C7
When everything I do is wrong
F Dm
You give me hope and consolation
Gm7 C7
You give me strength to carry on

F F7
And you try to show your love for me
Bb C7 F Eb7 D7
In everything you do
Gm7 C7 F Gm7 C7
That's the wonder, the wonder of you

And when you smile the world is brighter
You touch my hand and I'm a king
Your kiss to me is worth a fortune
Your love for me is everything

Guess I'll never know the reason why
You love me like you do
F Gm7 Gb7o F6
That's the wonder, the wonder of you

Chords:
Gb7o F6
e --0-- --1--
B --2-- --1--
G --3-- --2--
D --4-- --0--
A ----- -----
E ----- -----




There Goes My Everything

I hear [A]footsteps [D]slowly [A]walking,
as they gently walk a[E7]cross a lonely [A]floor.
[E7]And a [A]voice is [D]softly [A]saying:
"Darling this will be good[E7]bye for ever[A]more."

[A]There goes my [E7]reason for [A]liv[E7] - [A]ing,[A7]
[D]there goes the [E7]one of my [A]dreams.[E7]
[A]There goes my [A7]only pos[D]session,
[A]there goes my [E7]ev'ry[A]thing.[E7]

As my [A]mem'ry [D]turns back the [A]pages,
I can see the happy [E7]years we had be[A]fore.
[E7]Now the [A]love that [D]kept this old heart [A]beating
has been shattered by the [E7]closing of the [A]door.

[A]There goes my [E7]reason for [A]liv[E7] - [A]ing,[A7]
[D]there goes the [E7]one of my [A]dreams.[E7]
[A]There goes my [A7]only pos[D]session,
[A]there goes my [E7]ev'ry[A]thing.[E7]


There's A Honky Tonk Angel

D E A D E A
When was the last time you kissed me. And I don't mean a touch now and then.
D E A
It's been a long time since you felt like my woman.
D E7 c# b A
And even longer since I felt like your man.

D E A B B7 E
So tell me if you think it's over. And I'll leave it up to you how it ends.
D E A
'Cause if you don't want the love I can give you.
D A E7 A
Well there's a honky tonk angel who will take me back in.

Middleplay: D A E A
D E A
You never look at me and say "I love you".
D E A
How much more do you think I can stand.
D E A
Oh, there's an old friend out there and she's waiting.
D E7 c# b A
Lord she's happy just holding my hand.

D E A B B7 E
So tell me if you think it's over. And I'll leave it up to you how it ends.
D E A
'Cause if you don't want the love I can give you.
D A E7 A
Well there's a honky tonk angel who will take me back in.
D A E7 D E A
Yes, there's a honky tonk angel who will take me back in.


This Is My Heaven

A
This is my heaven
D
Being here with you
A
Make it last forever

This is my heaven
It's a dream come true
Make it last forever

E
Come to me now
A
And take my hand
DM A
This is the paradise I plan

You're like an angel
Sent from up above
Let's stay close together

You brought me heaven
When I shared your love
Make it last forever

Here 'neath the sky beside the sea
This is my heaven
When you come to me


This is the Story

Standard Tuning (Capo 1)

Intro-A
A E F
I play the song, that was our own. Your photographs by

C A D Bm E A
my side. I know I can't forget you, so I don't even try. A note

E F C A
you left is in my hand, I read again what you say. You're sorry

D Bm E
but you love him, and you both gone away

A D C#m F#m
Refrain-This is the story of man, who's world has fallen apart,

D A E A
and it's the story, that is breaking my heart.

An open fire, a favorite chair, I get a book from the shelf. But
the words I am reading, could apply to myself. (refrain)

Transcribed by Daniel J. Langa

Inherit the Wind
Standard tuning
Note: Play this song in the key it's written for the original version. Use
a Capo 1 to play the version from the Collectors Gold album, which is a live
version of this song from 1969.

Intro-B
E F#m B E
Baby don't fall in love with me, I'll only bring you grief.
E F#m B E
Baby don't set your heart on me, I'll only have to leave.

 

A E A E
Refrain-Because the north winds flows through my veins. Like

A E C#m

 

my dad there's a dream in my brain. In the morning I'll have to

 

F#m A E D
leave again, well that's how it is when you, inherit the wind,

E B
inherit the wind

Daddy he was a traveling man. I hardly knew his face.
Mama she cried for him at night, he never stayed in one place

Well I can't give you the love you need. You just won't be here
that long. But if you still want me here tonight, I'll love you till
the break of dawn.


Tiger Man

Standard tuning.

A
I am the king of the jungle
E E(add G) E E(add G) E
They call me the tiger man
A
I am the king of the jungle
E E(add G) E E(add G) E
They call me tiger man
B7
If you cross my path
A E E(add G) E E(add G) E
You take your own life in your hands

Yeah, I get up on a mountain
And I call my black cat back
Yeah, I get up on a mountain
And I call my black cat back
My black cat comes a runnin'
And the hound dogs get way back

Yeah, I get up on a mountain
And I call my black cat back
Yeah, I get up on a mountain
And I call my black cat back
My black cat comes a runnin'
And the hound dogs get way back

Yeah, I get up on a mountain
And I call my black cat back
Yeah, I get up on a mountain
And I call my black cat back
My black cat comes a runnin'
And the hound dogs get way back

E(add G)
e ---3---
B ---0---
G ---1---
D ---2---
A ---2---
E ---0---


Today, Tomorrow and Forever

Standard tuning.
Intro: D

I (D) give, give you my (F#m) heart
(B7) today, tomorrow and for(E7)ever
(A7)You'll always be my (D)love

I vow, we'll never part
today, tomorrow and forever
Long as there's stars above

(Gm)The cares of life will (D)fade away
As (Bm)long as we're to(F#)ge(A7)ther

So stay, stay in my arms
today, tomorrow and forever
You'll alway be my love

Then the key changes here from a D to an Eb

I (Eb) give, give you my (Gm) heart
(C7) today, tomorrow and for(F7)ever
(Bb7)You'll always be my (Eb)love

(G#m)The cares of life will (Eb)fade away
As (Cm)long as we're to(G)ge(Bb7)ther

 

(Eb) (Gm)
So stay, stay in my arms
(C7) (F7)
today, tomorrow and forever
(Bb7) (Gm)
You'll alway be my love

(C7) (F7)
Today, tomorrow and forever

(Bb7) (Eb)
You'll always be my love

FINALE: G#m Cm Eb


Tomorrow Is a Long Time

Standard tuning.

Intro: D

D
If today was not an endless highway
D
If tonight was not an endless trail
G A D
If tomorrow wasn't such a long time
G A D
Then lonesome would mean nothing to me at all

G A D
Yes and only if my own true love was waiting
G A D
If I could hear her heart softly pounding
G A D
If only she was lying by me
G A D
Then I'd lie in my bed once again

I can't see my reflection in the water
I can't speak the sounds that show no pain
I can't hear the echo of my footsteps
I can't remember the sound of my own name

Yes and only if my own true love was waiting
If I could hear her heart softly pounding
If only she was lying by me
Then I'd lie in my bed once again

There's beauty in the silver singing river
There's beauty in the sunrise in the sky
But none of these and nothing else could match the beauty
That I remember in my true love's eyes

Yes and only if my own true love was waiting
If I could hear her heart softly pounding
If only she was lying by me
Then I'd lie in my bed once again

If today was not an endless highway
If tonight was not an endless trail
If tomorrow wasn't such a long time
Then lonesome would mean nothing to me at all

Yes and only if my own true love was waiting
If I could hear her heart softly pounding
If only she was lying by me
Then I'd lie in my bed once again


Tomorrow Never Comes

c f c
Oh you tell me that you love me
f c
Yes you tell me that you care
g7 c am
That tomorrow we'll be married, oh
g7 c
But tomorrow's never there

Oh tomorrow never, never comes
Oh tomorrow never comes
Now you tell me that you love me, oh
But tomorrow never comes

Many weeks now have I waited
Oh many long nights have I cried
But just to see that happy morning, happy morning
When I have you right by my side

But tomorrow will never come, oh no, no
Tomorrow never gonna come
Now you tell me that you love me
But tomorrow never, never comes

So tomorrow IÕll be leaving
Yes tomorrow IÕll be gone
But tomorrow you'll be weeping, oh
But tomorrow will never, never come

Well tomorrow will never, never come
Oh no, tomorrow ain't never gonna come
Yeah, yeah, you tell me, you tell me
That you love me, but tomorrow never comes


Tomorrow Night

(F)To (C7)morrow (F)Night (F7)will you remember (Bb)what you said tonight?
Tommorrow (Bbm)Night (C7)will all the thrill be (F)gone)(F#7) (Gm7)
(C7)Tommorrow (F)Night (F7)will it be just another (Bb)memory?
or just another (Bbm)song (C7)that's in my heart to linger (F)on(Bb) (F)
(C)Your lips are so (F)tender(C),your heart is beating (F)fast
(Am)and you willingly surrender (Dm)to me, but (C)darling (Bb)will it (C7)last?

Tommorrow (F)Night(F7)will you be with me when the (Bb)moon is bright
tommorrow (Bbm)night will you (C7)say those lovely things you said tonigh(F)t (Bb) (F)

Tommorrow Night Will you remember what you said tonight?
Tommorrow Night Will all the thrill be gone? Tommorrow Night will It Be Just Another Memory
or just another song That's in my heart to linger on

Your kisses (are) so Tender
As I was leading Fast
And you willingly surrender
To me, but Darling will it last?
Tommorrow Night
Will You Be with Me When The Moon Is Bright?
Tommorrow Night will it be just a vivid dream tonight?


Too Much

INTRO
|---------------------------------------------------------|
|---------------------------------------------------------|
|------6-6-----6--------4-4-----4-------------------------|
|----------9-9---9----------7-7---7------4-4-----4--------|
|--7-7--------------5-5----------------------7-7---7------|
|------------------------------------5-5-------------5-5--|
(E) (D) (A)
VERSE 1 (play the above riffs for the indicated root)
A
Well, honey, I love you too much.

 

I need your lovin' too much.
D
Want the the thrill of your touch.
A
Well, gee, I can't love you too much.

CHORUS
E D
You do all the livin' while I do all the givin'
A
Cause I love you too much.

VERSE 2 (same notes)
You spend all my money too much.
I have to share you, honey, too much.
When I want some lovin'. You're gone.
Don't you know you're treatin' your Daddy wrong.

CHORUS
Now you got me started don't you leave me broken hearted.
Cause I love you too much.

VERSE 3
I need your lovin' all the time.
I need your huggin', please be mine.
Please be near me, stay real close.
Please, please hear me, you're the most.

CHORUS
Let me hear you sighin' even though I know you're lyin'.
Cause I love you too much.

SOLO
|--------------------------------|
|--2-3-4-5-4-3-2--2-3-4-5-4-3-2--|
|--2-3-4-5-4-3-2--2-3-4-5-4-3-2--|
|--2-3-4-5-4-3-2--2-3-4-5-4-3-2--|
|--------------------------------|
|--------------------------------|

|-----------------------------------------------------|
|--2-3-4-5-4-3-2-3-4-5-4-3-2-3-4-5-4-3-2-3-4-5-4-3-2--|
|--2-3-4-5-4-3-2-3-4-5-4-3-2-3-4-5-4-3-2-3-4-5-4-3-2--|
|--2-3-4-5-4-3-2-3-4-5-4-3-2-3-4-5-4-3-2-3-4-5-4-3-2--|
|-----------------------------------------------------|
|-----------------------------------------------------|

|-------------------------------------------------------|
|----------------------------2-3-4-5-4-3--5-4-3--5-4-3--|
|----------2-3-4----------4-----------------------------|
|--2-3-4-5--------2-3-4-5-------------------------------|
|-------------------------------------------------------|
|-------------------------------------------------------|

|--------6-5-4--6-5-4-3----------------------------------|
|--5-6-7----------------7-6-5-4-----------4-5-6-7-6-5-4--|
|-------------------------------7-6-5-6-7----------------|
|--------------------------------------------------------|
|--------------------------------------------------------|
|--------------------------------------------------------|

|---------------------------------------|
|--------4------------------------------|
|--7-6-7------7p5---5-7----7p5----------|
|-----------7-----7------7-----7-5-4-3--|
|---------------------------------------|
|---------------------------------------|

VERSE 4
Everytime I kiss your sweet lips.
I can feel my heart go and flip flips.
I'm such a fool for your charm.
Take me back, baby, in your arms.

CHORUS
Now you got me started, don't you leave broken hearted.
Cause I love you too much.


Treat Me Nice

When [C]I walk through that door, baby be po[C7]lite.
Your [F]gonna make me sore, if you don't greet me right.
Dont ya [G7]ever kiss me [C]once, kiss me [D7]twice, [G7]
treat me [C]nice

I [C]know that you've been told, its not fair to [C7]tease,
so [F]if you come on cold, I'm really gonna freeze.
If you [G7]don't want me to [C]be cold as [D7]ice, [G7]
treat me [C]nice, [C7]

[F]Make me feel at [C]home, [F]if you [F#dim]really [C]care.
[F]Scratch my back and [C]run your pretty -
[F]fingers [F#]through my [G7]hair.

You [C]know I'd be your slave, if you ask me [C7]to.
But [F]if you don't behave, I'll walk right out on you.
If you [G7]want my love then take my [D7]advice, [G7]
treat me [C]nice, [F7][C]


Trouble/Guitar Man

Standard tuning.

Riff 1: Riff 2:
e-------------------------| |-------------------------|
B-------------------------| |-------------------------|
G-------------------------| |-------------------------|
D-------------------------| |-----3-----1-------------|
A-----1-----1--3----------| |--3-----3-----3----------|
E--3-----3----------------| |-------------------------|

Intro: (Riff 1)
(Riff 2)
If you're looking for trouble
(Riff 1)
You came to the right place
(Riff 2)
If you're looking for trouble
(Riff 1)
Just look right in my face
(Riff 2)
I was born standing up
(Riff 1)
And talking back
[NC]
My daddy was a green-eyed mountain jack
F C
Because I'm evil, my middle name is misery
G7 F (tacet)
Well I'm evil, so don't you mess around with me

(Play a couple of times a C chord. Then go to the key of D)

D7
Well, I quit my job down at the car wash,
D7
Left my mama a goodbye note,
D7
By sundown I'd left Kingston,
D7
With my guitar under my coat,
G7
I hitchhiked all the way down to Memphis,
G7
Got a room at the YMCA,
D7
For the next three weeks I went huntin' them nights,
D7
Just lookin' for a place to play,
A7
Well, I thought my pickin' would set 'em on fire,
G7
But nobody wanted to hire a guitar man.

Well, I nearly 'bout starved to death down in Memphis,
I run outta money and luck,
So I bought me a ride down to Macon, Georgia,
On a overloaded poultry truck,
I thumbed on down to Panama City,
Started pickin' out some o' them all night bars,
Hopin' I could make myself a dollar,
Makin' music on my guitar,
I got the same old story at them all night piers,
There ain't no room around here for a guitar man
We don't need a guitar man, son

So I slept in the hobo jungles,
Roamed a thousand miles of track,
Till I found myself in Mobile Alabama,
At a club they call Big Jack's,
A little four-piece band was jammin',
So I took my guitar and I sat in,
E7
I showed 'em what a band would sound like,
A7
With a swingin' little guitar man.
Show 'em, son

If you ever take a trip down to the ocean,
Find yourself down around Mobile,
Make it on out to a club called Jack's,
If you got a little time to kill,
Just follow that crowd of people,
You'll wind up out on his dance floor,
Diggin' the finest little five-piece group,
Up and down the Gulf of Mexico,
Guess who's leadin' that five-piece band,
Well, wouldn't ya know, it's that swingin' little guitar man.


True Love

Standard tuning.

G D G Ddim7 D
Suntanned, windblown, honeymooners at last alone
G G7 C Cm G A D
Feeling far above par, oh how lucky we are
G C G
While I give to you and you give to me
D D7 G
True love, true love
G C G
So, on and on it will always be
D D7 G
True love, true love
Eb Bb Eb+ Cm Dm Bb
For you and I have a guardian angel on high with nothing to do
G C G D D7 G C#dim7
But to give to you and to give to me love forever true
D D7 G C#dim7
love forever true

Ddim7 Eb+ C#dim7
e --1-- --3-- --3--
B --0-- --0-- --2--
G --1-- --0-- --3--
D ----- --1-- --2--
A ----- ----- -----
E ----- ----- -----


True Love Travels on a Gravel Road

c/g em
How many girls choose cotton dress worlds
f c/g
When they could have satins and lace
f g
And stand by her man, never once letting shade touch her face
c/g
How many hearts could live through all the winters
f c/f
We've known and still not be cold
c/g f c/g
True love travels on a gravel road.

c/g
Love is a stranger and hearts are in danger
f c/g
On smooth streets paved with gold

For true love travels on a gravel road.

Down through the years we've had hard times and tears
But they only helped our love grow
And we'll stay together no matter how strong the wind blows
Not once have I seen your blue eyes filled with envy
Or stray from the one that you hold
Oh true love travels on a gravel road.

Love is a stranger and hearts are in danger
All through streets paved with gold
For true love travels on a gravel road.

Yeah, true love travels on a gravel road. Mmmm
True love travels on a gravel road.
True love travels on a gravel road.


Tryin' to Get to You ('68 Comeback version)

Standard tuning:

Riff 1: Riff 2:
E A
e||-------------0--| e||--------------|
B||-------------0--| B||-----------2--|
G||-------------1--| G||-----------2--|
D||-------------2--| D||-----------2--|
A||--0--1--2----2--| A||-----------0--|
E||-------------0--| E||--0--2--4-----|

Intro: E A E B7
E Riff 1
I've been traveling over mountains
E
Even through the valleys, too
[NC] A
I've been traveling night and day
B7
I've been running all the way
E
Baby, trying to get to you.

Ever since I read your letter
Where you said you loved me true
I've been traveling night and day
I've been running all the way
baby, trying to get to you

E7 A Riff 2
When I read your loving letter
E
Then my heart began to sing
A
There were many miles between us,
B7
But they didn't mean a thing.

I just had to reach you, baby,
In spite of all that I've been through.
I kept traveling night and day,
I kept running all the way,
Baby, trying to get to you.

Well if I had to do it over
That's exactly what I'd do,
I would travel night and day,
And I'd still run all the way,
Baby, trying to get to you.

Well, there's nothing that could hold me
Or that could keep me away from you
When your loving letter told me
That you really loved me true

Lord above me knows I love you
It was He who brought me through,
When my way was darkest night,
He would shine His brightest light,
When I was trying to get to you.

Ending: E A A11 B7 E

A11
e --0--
B --0--
G --0--
D --0--
A --0--
E -----

(Chords used in album version: F Bb and C7 )


Turn Your Eyes Upon Jesus

F Bb
O soul are you weary and troubled?
F C7 F
No light in the darkness you see?
G7
There's light for a look at the Saviour,
F C7 G7 C7
And life more abundant and free:

 

Chorus:

F C Dm F7
Turn you eyes upon Jesus,
Bb C7
Look full in His wonderful face;
F Dm
And the things of earth will grow strangely dim
F C7 F
In the light of His glory and grace.

 

Through death into life everlasting
He passed, and we follow Him there;
Over us sin no more hath dominion
For more than conqu'rors we are!

 

His word shall not fail you He promised;
Believe Him and all will be well.
Then go to a world that is dying,
His perfect salvation to tell!


Tutti Frutti

Standard tuning.

C
Wop-bop-a-loom-a-boom-bam-boom tutti frutti
F
au rutti tutti frutti au rutti tutti frutti
C G7
au rutti tutti frutti au rutti tutti frutti
C (Tacet)
au rutti wop-bop-a-loom-bop-a-boom-bam-boom

C
I got a gal named Sue
C
She knows just what to do
F
I've got a gal named Sue
C
She knows just what to do
C (Tacet)
She rocks me to the east
C (Tacet)
She rocks me to the west
C (Tacet)
She's the gal I love best

tutti frutti
au rutti tutti frutti au rutti tutti frutti
au rutti tutti frutti au rutti tutti frutti
au rutti wop-bop-a-loom-bop-a-boom-bam-boom

I got a gal named Daisy
She almost drives me crazy
I got a gal named Daisy
She almost drives me crazy
She knows how to love me
Yes indeed, boy you don't know
What she does to me

tutti frutti
au rutti tutti frutti au rutti tutti frutti
au rutti tutti frutti au rutti tutti frutti
au rutti wop-bop-a-loom-bop-a-boom-bam-boom

HIT IT! (Solo)

Well, tutti frutti
au rutti tutti frutti au rutti tutti frutti
au rutti tutti frutti au rutti tutti frutti
au rutti wop-bop-a-loom-bop-a-boom-bam-boom

I got a gal named Daisy
She almost drives me crazy
I got a gal named Daisy
She almost drives me crazy
She knows how to love me
Yes indeed, boy you don't know
What she does to me

tutti frutti
au rutti tutti frutti au rutti tutti frutti
au rutti tutti frutti au rutti tutti frutti
au rutti wop-bop-a-loom-bop-a-boom-bam-boom

 

Topo da Página



Oficial Home Page

Elvis, Elvis Presley, Graceland, e todos seus produtos são marca registrada da Elvis Presley Enterprises,Inc.
Todos os direitos reservados.
Essa hp não tem fins lucrativos, nosso compromisso é exclusivamente em divulgar a obra e da vida de um artista que no nosso ponto de vista é impar sobre todos os aspectos.
Visite a home page oficial.

Chuca da Paz

 

Topo da Página