CIFRAS

"A VIDA, A OBRA E O LEGADO DE UM REI"

Algumas Músicas Cifradas

A B C D E F G H I J K L M N O P Q R S T U V W X Y Z


Yesterday

Standard tuning.

Intro: C

C Bm
Yesterday,
E7 Am Am7/G F
All my troubles seemed so far away
G7 C
Now it looks as though they're here to stay
C/B Am7 D7 F C
Oh, I believe in yesterday

C Bm
Suddenly
E7 Am Am7/G F
I'm not half the man I used to be
G7 C
There's a shadow hanging over me
C/B Am7 D7 F C
Oh, yesterday, came suddenly

E7sus4 E7 Am G F
Why she had to go
Am/E Dm6 G7 C
I don't know, she wouldn't say
E7sus4 E7 Am G F
I said something wrong
Am/E Dm6 G7 C
Now I long for yesterday

C Bm
Yesterday
E7 Am Am7/G F
Love was such an easy game to play
G7 C
Now I need a place to hide away
C/B Am7 D7 F C
Oh, I believe in yesterday

C D7 F C
Mm_________________________

Am7/G C/B E7sus4 Am/E Dm6
e --0-- --0-- --0-- --0-- --1--
B --1-- --1-- --0-- --1-- --0--
G --0-- --0-- --2-- --2-- --2--
D --2-- --x-- --0-- --2-- --0--
A ----- --2-- --2-- ----- -----
E ----- ----- --0-- ----- -----

Tune your guitar a whole step down (DGCFAd) if you want to play along withe the
original Beatles version.... Start of with a G, F#m, B7, Em, Em7/D etc.


You Asked Me To

Standard tuning.

(tacet) F
Long ago and far away
C
In my old common labor shoes
G
I turned the world all which-a-way
C
Just because you asked me to

(tacet) F
Likened to no other feel'
C
Summer love is simple true
G
There's no end to what I'd do
C
Just because you asked me to

(tacet) F
Let the world call me a fool
C
Let it; things are right with me and you
G
That's all that matters and I'll do
C
Anything you ask me to

Solo: F C G C

(tacet) F
Knowin' how much I love you
C
After all I've been through
G
I'd turn and walk away from you
C
Just because you asked me to

(tacet) F
Let the world call me a fool
C
Let it; things are right with me and you
G
That's all that matters and I'll do
C
Anything you ask me to

(tacet) F
Let the world call me a fool
C
Let it; things are right with me and you
G
That's all that matters and I'll do
C
Anything you ask me to

Solo: F C G C

(tacet) F
Let the world call me a fool
C
Let it; things are right with me and you
G
That's all that matters and I'll do <-- Begin fade out
C
Anything you ask me to


You Don't Have to Say You Love Me

Standard tuning.

Bbm Bbm7 Eb7
When I said, I needed you
Ab Bb
You said you would always stay
Bbm
It wasn't me who changed, but you
Gm7-5 G7-9 C7
And now you've gone away

Fm Bbm Bbm7 Eb7
Don't you see that now you've gone
Ab Db
And I'm left her on my own
Bbm
Then I have to follow you
Gm7-5 C7
And beg you to come home

F Dm
You don't have to say you love me
Gm C7
Just be close at hand
F Dm
You don't have to stay forever
Gm C7
I will understand
F Am
Believe me, believe me
Dm
I can't help I love you
Gm7 C
But believe me, I'll never tie you down

(Tacet) Bbm Bbm7 Eb7
Left alone with just a memory
Ab Db
Life seems dead and so unreal
Bbm
All that's left is loneliness
C7 C7-9 C7+5 Fm
There's nothing left to feel

F Dm
You don't have to say you love me
Gm C7
Just be close at hand
F Dm
You don't have to stay forever
Gm C9
I will understand
F D
Believe me, believe me

G Em
You don't have to say you love me
Am D7
Just be close at hand
G Em
You don't have to stay forever
Am D7
I will understand
G Dm6 G Dm6 G
Believe me, believe me, believe me

Chords:
Gm7-5 G7-9 C7-9 C7+5 C9 Dm6
e --3-- --1-- --3-- --4-- --3-- --1--
B --2-- --3-- --2-- --1-- --3-- --0--
G --3-- --1-- --3-- --3-- --3-- --2--
D --3-- --0-- --2-- --2-- --2-- --0--
A ----- ----- --3-- ----- --3-- -----
E ----- ----- ----- ----- ----- -----


You Don't Know Me

Tune guitar 1/2 step down (from low to high: Eb Ab Db Gb Bb Eb)

C
You give your hand to me and then you say hello
C7 F
And I can hardly speak, my heart is beating so
C A7 Dm G7
And anyone could tell, you think you know me well
C D7 G7
But you don't know me

C
No you don't know the one who dreams of you at night
C7 F
And longs to kiss your lips and longs to hold you tight
C A7 Dm G7
To you I'm just a friend, and that's all I've ever been
C F C C7
No, you don't know me

F C
For I never knew the art of making love
Dm G7 C
Though my heart aches with love for you
Am Em
Afraid and shy I let my chance go by
D7 G7
The chance that you might love me too

C
You give your hand to me and then you say good-bye
C7 F
I watch you walk away beside the lucky guy
C A7 Dm G7
To never, never know the one who loves you so
C F C
No, you don't know me


You Gave Me a Mountain

C Am
Born in the heat of the desert,
Dm7 G7
My mother died givin' me life;
C Am
Deprived of the love a Father,
Dm7 G7
Blamed for the loss of his wife.
C Am
You know, Lord, I've been in a prison,
F G7
For something that I've never done;
C Em
It's been one hill after another,
F Dm7 G7
But I've climbed them all one by one.

CHORUS
C F C
But this time, Lord, You gave me a Mountain,
F C G D
A Mountain I may never climb;
C F C
And it isn't a hill any longer,
F C G D
You gave me a Mountain this time.

C
My Woman got tired of the hardships,
Tired of the grief and the strife;
So tired of workin' for nothin',
Tired of bein' my wife,
She took my one ray of sun-shine,
She took my pride and my joy;
She took my reason for living,
She took my small baby boy.

CHORUS

So this time, Lord, you gave me a Mountain,
A Mountain I may never climb;
And it isn't a hill any longer,
You gave me a Mountain this time.


You'll never walk alone

When you (G)walk through the storm
Hold your (D)head up high
And (C)don't be (G)afraid of the (D)dark
At the (F)end of the (Am)storm
There's a (C)go(Em)-olden (Am)sky
And the (F)sweet (C)silver (G)song (F)of the (B)lark(G)

Walk (C)on, through the (B)wind
(Em)Walk on, through the (A)rain
Though your (G)dreams be (Em)tossed and (C)blo(D)-own
(G)Walk on, walk (G+5)on, with (C)hope in your (A)heart
And you'll (G)ne(G+5)ver (G6)walk (G7)a(Em)lone(D)
You'll (G)ne(B)ver (C)walk (D)a(G)lone

Walk on, walk on, with hope in your heart
And you'll never walk aloneY
ou'll never walk alone


You're a Heartbreaker

Standard tuning.

Intro:
G D A
E||--------------10--------|--5\-------2------4/-|--5-------------------|
B||----------12------12----|--7\-------3------4/-|--5-------------------|
G||----------12------12----|--7\-------2------5/-|--6-------------------|
D||------------------------|---------------------|----------------------|
A||------------------------|---------------------|-------0----2----4----|
E||------------------------|---------------------|----------------------|

D D
E||-----------------------|-------------------|
B||-----------------------|--3----------------|
G||---------------2--4----|-------------------|
D||--0------2h-4----------|-------------------|
A||-----------------------|-------------------|
E||-----------------------|-------------------|

[NC] D
You're a heartbreaker,
G
You're a love faker,
D A
A heartbreaker playing with fire.
D
You're a tear snatcher,
G
You're a quarrel patcher,
D A D
But you can't break my heart anymore,
A D
For I just found someone else who's sure to take your place.
A D
Someone I can always trust and to fill this empty space.

D
You're a heartbreaker,
G
You're a love faker,
D A D
But you can't break my heart anymore.

You're a smooth talker,
You're a real cool walker,
But now you have talked out of turn.
You're a high stepper,
You're a eye-catcher,
But you won't catch my glances anymore.
For I just found someone else who's sure to take your place,
Someone I can always trust and to fill this empty space.

You're a heartbreaker
You're a love faker,
But you can't break my heart anymore.

You're a heart breaker
You're a love faker,
A heartbreaker playing with fire.
You're a tear snatcher,
You're a quarrel patcher,
But you can't break my heart anymore.
For I've just found someone else who's sure to take your place.
Someone I can always trust and to fill this empty space.

You're a heartbreaker,
You're a love faker,
But you can't break my heart anymore.

Ending:

D D
E||--10-------12----13----|--14----------10----|
B||--10-------13----14----|--15----------10----|
G||-----------------------|--------------11----|
D||-----------------------|-----------9--------|
A||-----------------------|--------------------|
E||-----------------------|--------------------|


Young and Beautiful

Standard tuning.

F Dm Gm C7 F
You're so young and beautiful and I love you so
F Dm Gm C7
Your lips so red, your eyes that shine
C7 F
Shame the stars that glow
F Dm Gm C7
So fill these lonely arms of mine
C7 F
And kiss me tenderly
F Dm Gm
Then you'll be forever young
F Gm7 C7
And beautiful to me

You're so young and beautiful, you're everything I love
Your angel smile, your gentle touch
Are all I'm dreaming of
Oh take this heart I offer you
And never set me free
Then you'll be forever young
F C7 F
And beautiful to me


Your Cheatin' Heart

Standard tuning.

Intro:
e||--10--10--12--12--10--10--/9---9---9---8--7--------------------------||
B||--10--10--12--12--10--10--/10--10--10--9--8--/10--8--7------------7--||
G||---------------------------------------------/11--9--7------7-----7--||
D||--------------------------------------------------------/9-----9-----||
A||---------------------------------------------------------------------||
E||---------------------------------------------------------------------||

Riff 1: (Played by Scotty Moore)

D
e||----------------------------------------------------||
B||--------10-10-12b---10-10--------10-10-12b---10-10--||
G||----------------------------------------------------||
D||--12-12-------------------12-12---------------------||
A||----------------------------------------------------||
E||----------------------------------------------------||

G A
e||----------------------------------------------------------------------||
B||------3-3-5b---3-3-----3-3-5b---3-3-----5-5-7b---5-5-----5-5-7b--5-5--||
G||----------------------------------------------------------------------||
D||--5-5--------------5-5--------------7-7--------------7-7--------------||
A||----------------------------------------------------------------------||
E||----------------------------------------------------------------------||

b = bend 1/4

Riff 1 <---- Scotty
(Tacet) D G <---- Elvis
Your cheatin' heart will make you weep
A D
You'll cry and cry and try to sleep
D G
But sleep won't come the whole night through
A D
Your cheatin' heart will tell on you

G D
When tears come down like falling rain
E A
You'll toss around and call my name
(Tacet) D G
You're gonna walk that floor the way that I do
A D
Your cheatin' heart will tell on you

When tears come down like falling rain
You'll toss around and call my name
You're gonna walk that floor just the way that I do
Your cheatin' heart will tell on you

Solo:

When tears come down like falling rain
You'll toss around and call my name
You're gonna walk that floor just the way that I do
Your cheatin' heart will tell on you
A D
Your cheatin' heart will tell on you
A D
Your cheatin' heart will tell on you


You've Lost That Lovin' Feelin'

Intro:
Bass: D

Guitar:
D7sus4
E|-----------3--------------| |
B|--------1-----------1-----|*|
G|-----2-----------------2--| |
D|--0--------------0--------| |
A|--------------------------|*|
e|--------------------------| |

D
You never close your eyes
D D
Anymore when I kiss your lips
D
There's no tenderness
D D
Like before in you fingertips
Em F#m
You're trying hard not to show it,
G D
Baby, baby I know it

D Em A D
You've lost that lovin' feelin', oh that lovin' feelin'
D G C G Am
You've lost that lovin' feelin', now it's gone, gone, gone

There's no tenderness in your eyes
When I reach out for you
Girl, you're starting to criticize
Every little thing I do
It makes me just feel like crying
'Cause baby, something beautiful's dying

You've lost that lovin' feelin', oh that lovin' feelin'
You've lost that lovin' feelin', now it's gone, gone, gone

Fill2
D G A G
E|--------------------------------------| |
B|--------------------------------------|*|
G|--------------------2-----2-----------| |
D|--0-----0--5-----5-----------5--2-----| |
A|--------------------------------------|*|
e|--------------------------------------| |

D G A G D
Baby, baby, I get down on my knees for you
If you would only love me like you used to do
We had a love, love, love, love affair every day
Oh don't, don't, don't, don't take it away
Listen to me, talkin' to you

Bring back that lovin' feelin, oh, that lovin' feelin'
Bring back that lovin' feelin, now it's gone, gone, gone
And I can't go on

 

Topo da Página



Oficial Home Page

Elvis, Elvis Presley, Graceland, e todos seus produtos são marca registrada da Elvis Presley Enterprises,Inc.
Todos os direitos reservados.
Essa hp não tem fins lucrativos, nosso compromisso é exclusivamente em divulgar a obra e da vida de um artista que no nosso ponto de vista é impar sobre todos os aspectos.
Visite a home page oficial.

Chuca da Paz

 

Topo da Página